  0
SECTION
  2
HEADER
  9
$ACADVER
  1
AC1009
  9
$INSBASE
 10
0.0
 20
0.0
 30
0.0
  9
$EXTMIN
 10
-2.2073287796047181
 20
0.4717930703832709
 30
0.0
  9
$EXTMAX
 10
14.035956080622791
 20
15.80703014863227
 30
0.0
  9
$LIMMIN
 10
0.0
 20
0.0
  9
$LIMMAX
 10
12.0
 20
9.0
  9
$ORTHOMODE
 70
     0
  9
$REGENMODE
 70
     1
  9
$FILLMODE
 70
     1
  9
$QTEXTMODE
 70
     0
  9
$MIRRTEXT
 70
     1
  9
$DRAGMODE
 70
     2
  9
$LTSCALE
 40
0.6
  9
$OSMODE
 70
   111
  9
$ATTMODE
 70
     1
  9
$TEXTSIZE
 40
0.2
  9
$TRACEWID
 40
0.05
  9
$TEXTSTYLE
  7
ARIAL
  9
$CLAYER
  8
ADAPTER
  9
$CELTYPE
  6
BYLAYER
  9
$CECOLOR
 62
   256
  9
$DIMSCALE
 40
1.0
  9
$DIMASZ
 40
0.125
  9
$DIMEXO
 40
0.0625
  9
$DIMDLI
 40
0.25
  9
$DIMRND
 40
0.0
  9
$DIMDLE
 40
0.0
  9
$DIMEXE
 40
0.125
  9
$DIMTP
 40
0.0
  9
$DIMTM
 40
0.0
  9
$DIMTXT
 40
0.125
  9
$DIMCEN
 40
0.09
  9
$DIMTSZ
 40
0.0
  9
$DIMTOL
 70
     0
  9
$DIMLIM
 70
     0
  9
$DIMTIH
 70
     1
  9
$DIMTOH
 70
     1
  9
$DIMSE1
 70
     0
  9
$DIMSE2
 70
     0
  9
$DIMTAD
 70
     0
  9
$DIMZIN
 70
     4
  9
$DIMBLK
  1

  9
$DIMASO
 70
     1
  9
$DIMSHO
 70
     1
  9
$DIMPOST
  1

  9
$DIMAPOST
  1

  9
$DIMALT
 70
     0
  9
$DIMALTD
 70
     2
  9
$DIMALTF
 40
25.399999999999999
  9
$DIMLFAC
 40
1.0
  9
$DIMTOFL
 70
     0
  9
$DIMTVP
 40
0.0
  9
$DIMTIX
 70
     0
  9
$DIMSOXD
 70
     0
  9
$DIMSAH
 70
     0
  9
$DIMBLK1
  1

  9
$DIMBLK2
  1

  9
$DIMSTYLE
  2
FRAC
  9
$DIMCLRD
 70
   256
  9
$DIMCLRE
 70
   256
  9
$DIMCLRT
 70
   256
  9
$DIMTFAC
 40
1.0
  9
$DIMGAP
 40
0.09
  9
$LUNITS
 70
     2
  9
$LUPREC
 70
     4
  9
$SKETCHINC
 40
0.1
  9
$FILLETRAD
 40
0.5
  9
$AUNITS
 70
     0
  9
$AUPREC
 70
     0
  9
$MENU
  1
.
  9
$ELEVATION
 40
0.0
  9
$PELEVATION
 40
0.0
  9
$THICKNESS
 40
0.0
  9
$LIMCHECK
 70
     0
  9
$BLIPMODE
 70
     0
  9
$CHAMFERA
 40
0.0
  9
$CHAMFERB
 40
0.0
  9
$SKPOLY
 70
     0
  9
$TDCREATE
 40
2452392.3517971062
  9
$TDUPDATE
 40
2452554.4608140038
  9
$TDINDWG
 40
0.2143916667
  9
$TDUSRTIMER
 40
0.2143891204
  9
$USRTIMER
 70
     1
  9
$ANGBASE
 50
0.0
  9
$ANGDIR
 70
     0
  9
$PDMODE
 70
     3
  9
$PDSIZE
 40
0.0
  9
$PLINEWID
 40
0.0
  9
$COORDS
 70
     2
  9
$SPLFRAME
 70
     0
  9
$SPLINETYPE
 70
     6
  9
$SPLINESEGS
 70
     8
  9
$ATTDIA
 70
     0
  9
$ATTREQ
 70
     1
  9
$HANDLING
 70
  4097
  9
$HANDSEED
  5
D43
  9
$SURFTAB1
 70
     6
  9
$SURFTAB2
 70
     6
  9
$SURFTYPE
 70
     6
  9
$SURFU
 70
     6
  9
$SURFV
 70
     6
  9
$UCSNAME
  2

  9
$UCSORG
 10
0.0
 20
0.0
 30
0.0
  9
$UCSXDIR
 10
1.0
 20
0.0
 30
0.0
  9
$UCSYDIR
 10
0.0
 20
1.0
 30
0.0
  9
$PUCSNAME
  2

  9
$PUCSORG
 10
0.0
 20
0.0
 30
0.0
  9
$PUCSXDIR
 10
1.0
 20
0.0
 30
0.0
  9
$PUCSYDIR
 10
0.0
 20
1.0
 30
0.0
  9
$USERI1
 70
     0
  9
$USERI2
 70
     0
  9
$USERI3
 70
     0
  9
$USERI4
 70
     0
  9
$USERI5
 70
     0
  9
$USERR1
 40
1.0
  9
$USERR2
 40
25.399999999999999
  9
$USERR3
 40
0.0
  9
$USERR4
 40
0.0
  9
$USERR5
 40
0.0
  9
$WORLDVIEW
 70
     1
  9
$SHADEDGE
 70
     3
  9
$SHADEDIF
 70
    70
  9
$TILEMODE
 70
     1
  9
$MAXACTVP
 70
    48
  9
$PLIMCHECK
 70
     0
  9
$PEXTMIN
 10
1.0000000000000000E+020
 20
1.0000000000000000E+020
 30
1.0000000000000000E+020
  9
$PEXTMAX
 10
-1.0000000000000000E+020
 20
-1.0000000000000000E+020
 30
-1.0000000000000000E+020
  9
$PLIMMIN
 10
0.0
 20
0.0
  9
$PLIMMAX
 10
12.0
 20
9.0
  9
$UNITMODE
 70
     0
  9
$VISRETAIN
 70
     1
  9
$PLINEGEN
 70
     0
  9
$PSLTSCALE
 70
     1
  0
ENDSEC
  0
SECTION
  2
TABLES
  0
TABLE
  2
VPORT
 70
     2
  0
VPORT
  2
*ACTIVE
 70
     0
 10
0.0
 20
0.0
 11
1.0
 21
1.0
 12
5.9142945281792301
 22
8.13928433701507
 13
0.0
 23
0.0
 14
0.5
 24
0.5
 15
0.5
 25
0.5
 16
0.0
 26
0.0
 36
1.0
 17
0.0
 27
0.0
 37
0.0
 40
15.75047753038276
 41
1.3665594855305461
 42
50.0
 43
0.0
 44
0.0
 50
0.0
 51
0.0
 71
     0
 72
   100
 73
     1
 74
     2
 75
     0
 76
     0
 77
     0
 78
     0
  0
ENDTAB
  0
TABLE
  2
LTYPE
 70
     3
  0
LTYPE
  2
CONTINUOUS
 70
     0
  3
Solid line
 72
    65
 73
     0
 40
0.0
  0
LTYPE
  2
CENTER
 70
     0
  3
Center ____ _ ____ _ ____ _ ____ _ ____ _ ____
 72
    65
 73
     4
 40
2.0
 49
1.25
 49
-0.25
 49
0.25
 49
-0.25
  0
LTYPE
  2
HIDDEN
 70
     0
  3
Hidden __ __ __ __ __ __ __ __ __ __ __ __ __ _
 72
    65
 73
     2
 40
0.375
 49
0.25
 49
-0.125
  0
ENDTAB
  0
TABLE
  2
LAYER
 70
     6
  0
LAYER
  2
0
 70
     0
 62
     7
  6
CONTINUOUS
  0
LAYER
  2
CENTERLINE
 70
     0
 62
     1
  6
CENTER
  0
LAYER
  2
L3-16
 70
     0
 62
     2
  6
CONTINUOUS
  0
LAYER
  2
ADAPTER
 70
     0
 62
     3
  6
CONTINUOUS
  0
LAYER
  2
CTRSPINDLE
 70
     0
 62
     6
  6
CONTINUOUS
  0
LAYER
  2
DRIVE_TANG
 70
     0
 62
     4
  6
CONTINUOUS
  0
ENDTAB
  0
TABLE
  2
STYLE
 70
     2
  0
STYLE
  2
STANDARD
 70
     0
 40
0.0
 41
1.0
 50
0.0
 71
     0
 42
0.2
  3
txt
  4

  0
STYLE
  2
ARIAL
 70
     0
 40
0.0
 41
1.0
 50
0.0
 71
     0
 42
0.2
  3
txt
  4

  0
ENDTAB
  0
TABLE
  2
VIEW
 70
     0
  0
ENDTAB
  0
TABLE
  2
UCS
 70
     0
  0
ENDTAB
  0
TABLE
  2
APPID
 70
     1
  0
APPID
  2
ACAD
 70
     0
  0
ENDTAB
  0
TABLE
  2
DIMSTYLE
 70
     1
  0
DIMSTYLE
  2
FRAC
 70
     0
  3

  4

  5

  6

  7

 40
1.0
 41
0.125
 42
0.0625
 43
0.25
 44
0.125
 45
0.0
 46
0.0
 47
0.0
 48
0.0
140
0.125
141
0.09
142
0.0
143
25.399999999999999
144
1.0
145
0.0
146
1.0
147
0.09
 71
     0
 72
     0
 73
     1
 74
     1
 75
     0
 76
     0
 77
     0
 78
     4
170
     0
171
     2
172
     0
173
     0
174
     0
175
     0
176
   256
177
   256
178
   256
  0
ENDTAB
  0
ENDSEC
  0
SECTION
  2
BLOCKS
  0
BLOCK
  8
0
  2
$MODEL_SPACE
 70
     0
 10
0.0
 20
0.0
 30
0.0
  3
$MODEL_SPACE
  1

  0
ENDBLK
  5
21
  8
0
  0
BLOCK
 67
     1
  8
0
  2
$PAPER_SPACE
 70
     0
 10
0.0
 20
0.0
 30
0.0
  3
$PAPER_SPACE
  1

  0
ENDBLK
  5
1D
 67
     1
  8
0
  0
ENDSEC
  0
SECTION
  2
ENTITIES
  0
LINE
  5
79
  8
CENTERLINE
 10
-0.2191397396047182
 20
13.543250548632271
 30
0.0
 11
5.6863722603952809
 21
13.543250548632271
 31
0.0
  0
LINE
  5
D3
  8
L3-16
 10
3.4442462043952822
 20
2.4796671503832748
 30
0.0
 11
7.3773171963952811
 21
2.4796671503832761
 31
0.0
  0
LINE
  5
18B
  8
ADAPTER
 10
-0.1374023425565852
 20
7.8009271631832764
 30
0.0
 11
5.6046348633471483
 21
7.8009271631832764
 31
0.0
  0
LINE
  5
1D3
  8
ADAPTER
 10
1.272986292395281
 20
10.14108471838327
 30
0.0
 11
4.1942462283952811
 21
10.14108471838327
 31
0.0
  0
LINE
  5
1D5
  8
ADAPTER
 10
1.272986292395281
 20
10.14108471838327
 30
0.0
 11
1.272986292395281
 21
7.8009271631832746
 31
0.0
  0
LINE
  5
1D6
  8
ADAPTER
 10
4.1942462283952811
 20
10.14108471838327
 30
0.0
 11
4.1942462283952811
 21
10.042659518383269
 31
0.0
  0
LINE
  5
1D7
  8
ADAPTER
 10
3.648576919595282
 20
10.042659518383269
 30
0.0
 11
4.6328289195952808
 21
10.042659518383269
 31
0.0
  0
LINE
  5
1D8
  8
ADAPTER
 10
4.6328289195952808
 20
10.042659518383269
 30
0.0
 11
4.6328289195952808
 21
8.7139193183832742
 31
0.0
  0
LINE
  5
1D9
  8
ADAPTER
 10
4.6328289195952808
 20
8.7139193183832742
 30
0.0
 11
3.6485769195952811
 21
8.7139193183832742
 31
0.0
  0
LINE
  5
1DA
  8
ADAPTER
  6
HIDDEN
 10
3.6485769195952811
 20
10.042659518383269
 30
0.0
 11
3.6485769195952811
 21
8.7139193183832742
 31
0.0
  0
LINE
  5
1DB
  8
ADAPTER
 10
4.1942462283952819
 20
8.7139193183832742
 30
0.0
 11
4.1942462283952811
 21
7.8009271631832746
 31
0.0
  0
CIRCLE
  5
1DC
  8
ADAPTER
 10
4.3403800913392807
 20
9.3782894183832752
 30
0.0
 40
0.219347573948256
  0
POLYLINE
  5
1DD
  8
ADAPTER
 66
     1
 10
0.0
 20
0.0
 30
0.0
 70
     1
  0
VERTEX
  5
D2E
  8
ADAPTER
 10
4.2039981427153101
 20
9.6145098826352431
 30
0.0
  0
VERTEX
  5
D2F
  8
ADAPTER
 10
4.0676161940913369
 20
9.3782894183832752
 30
0.0
  0
VERTEX
  5
D30
  8
ADAPTER
 10
4.2039981427153092
 20
9.1420689541313074
 30
0.0
  0
VERTEX
  5
D31
  8
ADAPTER
 10
4.4767620399632531
 20
9.1420689541313074
 30
0.0
  0
VERTEX
  5
D32
  8
ADAPTER
 10
4.6131439885872263
 20
9.3782894183832752
 30
0.0
  0
VERTEX
  5
D33
  8
ADAPTER
 10
4.4767620399632531
 20
9.6145098826352431
 30
0.0
  0
SEQEND
  5
D34
  8
ADAPTER
  0
CIRCLE
  5
1DE
  8
ADAPTER
 10
2.7336162603952809
 20
13.543250548632271
 30
0.0
 40
1.460629967999999
  0
LINE
  5
225
  8
ADAPTER
 10
-0.1374023425565852
 20
7.400927150383275
 30
0.0
 11
5.6046348633471483
 21
7.4009271503832759
 31
0.0
  0
LINE
  5
226
  8
ADAPTER
 10
4.6328289195952808
 20
14.340494668632269
 30
0.0
 11
4.6328289195952808
 21
12.746006428632271
 31
0.0
  0
LINE
  5
270
  8
ADAPTER
 10
4.6328289195952808
 20
14.340494668632269
 30
0.0
 11
3.2900399623952459
 21
14.89374400188273
 31
0.0
  0
LINE
  5
271
  8
ADAPTER
 10
4.0184010243043593
 20
12.49285285481305
 30
0.0
 11
3.2900399623952459
 21
12.19275709538182
 31
0.0
  0
LINE
  5
272
  8
ADAPTER
 10
4.6328289195952808
 20
12.746006428632271
 30
0.0
 11
4.0184010243043593
 21
12.746006428632271
 31
0.0
  0
LINE
  5
273
  8
ADAPTER
 10
4.0184010243043593
 20
12.746006428632271
 30
0.0
 11
4.0184010243043593
 21
12.49285285481305
 31
0.0
  0
LINE
  5
276
  8
ADAPTER
 10
4.6131439885872236
 20
12.68695130863227
 30
0.0
 11
4.6131439885872236
 21
12.44103287015834
 31
0.0
  0
LINE
  5
277
  8
ADAPTER
 10
4.4767620399632531
 20
12.68695130863227
 30
0.0
 11
4.4767620399632531
 21
12.441032870158329
 31
0.0
  0
LINE
  5
278
  8
ADAPTER
 10
4.2039981427153084
 20
12.68695130863227
 30
0.0
 11
4.2039981427153084
 21
12.441032870158329
 31
0.0
  0
LINE
  5
279
  8
ADAPTER
 10
4.067616194091336
 20
12.68695130863227
 30
0.0
 11
4.067616194091336
 21
12.44103287015834
 31
0.0
  0
LINE
  5
27B
  8
ADAPTER
 10
4.0479311540913363
 20
12.68695130863227
 30
0.0
 11
4.6328290285872251
 21
12.68695130863227
 31
0.0
  0
LINE
  5
27C
  8
ADAPTER
 10
4.0479311540913363
 20
12.68695130863227
 30
0.0
 11
4.0479311540913363
 21
12.746006428632271
 31
0.0
  0
LINE
  5
27D
  8
ADAPTER
 10
4.6328290285872251
 20
12.68695130863227
 30
0.0
 11
4.6328290285872251
 21
12.746006428632271
 31
0.0
  0
LINE
  5
27F
  8
ADAPTER
 10
4.1358071684033231
 20
12.4049443298457
 30
0.0
 11
4.5449530142752383
 21
12.4049443298457
 31
0.0
  0
ARC
  5
280
  8
ADAPTER
 10
4.1358071684033231
 20
12.48741360773764
 30
0.0
 40
0.0824692778919425
 50
214.2219499523211
 51
325.77805004767828
  0
ARC
  5
282
  8
ADAPTER
 10
4.5449530142752366
 20
12.48741360773764
 30
0.0
 40
0.0824692778919425
 50
214.22194995232161
 51
325.7780500476789
  0
ARC
  5
283
  8
ADAPTER
 10
4.340380091339286
 20
12.68068863094452
 30
0.0
 40
0.2757443010988207
 50
240.356905410038
 51
299.6430945899599
  0
LINE
  5
3A2
  8
CENTERLINE
 10
0.3714114603952818
 20
13.543250548632271
 30
0.0
 11
5.0958210603952807
 21
13.543250548632271
 31
0.0
  0
LINE
  5
3BA
  8
L3-16
 10
4.9789055000517433
 20
2.0816075192595411
 30
0.0
 11
5.8426579007388204
 21
2.0816075192595411
 31
0.0
  0
LINE
  5
3BB
  8
L3-16
 10
5.8533440653327462
 20
2.4609663623439051
 30
0.0
 11
4.9682193354578184
 21
2.4609663623439051
 31
0.0
  0
ARC
  5
3BC
  8
L3-16
 10
5.4107817003952823
 20
2.1094360728895549
 30
0.0
 40
0.3484134914477874
 50
184.5812200852769
 51
355.41877991472307
  0
LINE
  5
3BD
  8
L3-16
 10
5.8426579007388204
 20
2.0816075192595411
 30
0.0
 11
5.8426579007388204
 21
2.4609663623439051
 31
0.0
  0
LINE
  5
3BE
  8
L3-16
 10
5.8533440653327462
 20
2.4609663623439051
 30
0.0
 11
5.8533440653327462
 21
2.4796671503832761
 31
0.0
  0
LINE
  5
3BF
  8
L3-16
 10
5.6267198005670513
 20
2.0816075192595411
 30
0.0
 11
5.6267198005670513
 21
2.4609663623439051
 31
0.0
  0
LINE
  5
3C0
  8
L3-16
 10
5.1948436002235123
 20
2.0816075192595411
 30
0.0
 11
5.1948436002235123
 21
2.4609663623439051
 31
0.0
  0
LINE
  5
3C1
  8
L3-16
 10
4.9789055000517433
 20
2.0816075192595411
 30
0.0
 11
4.9789055000517433
 21
2.4609663623439051
 31
0.0
  0
LINE
  5
3C2
  8
L3-16
 10
4.9682193354578184
 20
2.4609663623439051
 30
0.0
 11
4.9682193354578184
 21
2.4796671503832761
 31
0.0
  0
LINE
  5
3C8
  8
L3-16
 10
-2.2073287796047181
 20
7.4009271503832741
 30
0.0
 11
7.67456130039528
 21
7.4009271503832741
 31
0.0
  0
LINE
  5
406
  8
L3-16
 10
14.035956080622791
 20
7.4009271503832741
 30
0.0
 11
9.5083968806227883
 21
7.4009271503832741
 31
0.0
  0
LINE
  5
437
  8
ADAPTER
 10
13.232806495362951
 20
10.141084806068349
 30
0.0
 11
13.232806495362951
 21
7.8009271759833121
 31
0.0
  0
LINE
  5
438
  8
ADAPTER
 10
10.311546465882619
 20
10.141084806068349
 30
0.0
 11
10.311546465882619
 21
7.8009271759833121
 31
0.0
  0
LINE
  5
43D
  8
ADAPTER
 10
14.02808206462279
 20
7.4009271503832759
 30
0.0
 11
9.5162708966227925
 21
7.400927150383275
 31
0.0
  0
LINE
  5
43E
  8
ADAPTER
 10
14.02808206462279
 20
7.8009271759833103
 30
0.0
 11
9.5162708966227907
 21
7.8009271759833121
 31
0.0
  0
LINE
  5
447
  8
ADAPTER
 10
13.232806495362951
 20
10.141084806068349
 30
0.0
 11
10.311546465882619
 21
10.141084806068349
 31
0.0
  0
LINE
  5
51F
  8
ADAPTER
 10
0.9577677830264155
 20
15.79915613263227
 30
0.0
 11
4.5094647377641461
 21
15.79915613263227
 31
0.0
  0
LINE
  5
564
  8
L3-16
  6
HIDDEN
 10
2.1824351403952811
 20
7.8733681103832751
 30
0.0
 11
2.5367658603952821
 21
7.8733681103832751
 31
0.0
  0
LINE
  5
566
  8
L3-16
  6
HIDDEN
 10
3.2847973803952821
 20
7.8733681103832751
 30
0.0
 11
3.2847973803952821
 21
7.4009271503832768
 31
0.0
  0
LINE
  5
567
  8
L3-16
  6
HIDDEN
 10
2.1824351403952811
 20
7.8733681103832751
 30
0.0
 11
2.1824351403952811
 21
7.4009271503832759
 31
0.0
  0
LINE
  5
569
  8
L3-16
  6
HIDDEN
 10
2.930466660395282
 20
7.8733681103832751
 30
0.0
 11
2.930466660395282
 21
7.4796673103832747
 31
0.0
  0
LINE
  5
56A
  8
L3-16
  6
HIDDEN
 10
2.930466660395282
 20
7.4796673103832747
 30
0.0
 11
2.5367658603952821
 21
7.4796673103832747
 31
0.0
  0
LINE
  5
56B
  8
L3-16
  6
HIDDEN
 10
2.5367658603952821
 20
7.4796673103832747
 30
0.0
 11
2.5367658603952821
 21
7.8733681103832751
 31
0.0
  0
LINE
  5
56C
  8
L3-16
  6
HIDDEN
 10
2.930466660395282
 20
7.8733681103832751
 30
0.0
 11
3.2847973803952821
 21
7.8733681103832751
 31
0.0
  0
LINE
  5
6EE
  8
L3-16
  6
HIDDEN
 10
6.9011918643887151
 20
3.6607695503832751
 30
0.0
 11
6.9011918643887151
 21
7.4009271503832759
 31
0.0
  0
LINE
  5
6EF
  8
L3-16
 10
7.67456130039528
 20
3.6607695503832751
 30
0.0
 11
7.6745613003952808
 21
7.4009271503832759
 31
0.0
  0
LINE
  5
6F1
  8
L3-16
 10
-2.2073287796047172
 20
3.6607695503832751
 30
0.0
 11
7.67456130039528
 21
3.6607695503832751
 31
0.0
  0
LINE
  5
6F2
  8
L3-16
 10
7.3773171963952802
 20
3.6607695503832751
 30
0.0
 11
7.3773171963952811
 21
2.4796671503832761
 31
0.0
  0
LINE
  5
6F4
  8
L3-16
 10
3.4442462043952831
 20
3.6607695503832751
 30
0.0
 11
3.4442462043952822
 21
2.4796671503832748
 31
0.0
  0
LINE
  5
6F5
  8
L3-16
 10
3.4442462043952822
 20
0.4717930703832753
 30
0.0
 11
4.8576320763952818
 21
0.4717930703832753
 31
0.0
  0
LINE
  5
6F7
  8
L3-16
 10
4.8576320763952818
 20
2.4796671503832748
 30
0.0
 11
4.8576320763952818
 21
0.4717930703832753
 31
0.0
  0
LINE
  5
6F9
  8
L3-16
 10
3.4442462043952822
 20
2.4796671503832748
 30
0.0
 11
3.4442462043952822
 21
0.4717930703832753
 31
0.0
  0
LINE
  5
6FA
  8
L3-16
 10
2.0229863163952828
 20
2.4796671503832699
 30
0.0
 11
-1.910084675604715
 21
2.4796671503832699
 31
0.0
  0
LINE
  5
6FB
  8
L3-16
 10
2.0229863163952819
 20
3.6607695503832711
 30
0.0
 11
2.0229863163952828
 21
2.4796671503832699
 31
0.0
  0
LINE
  5
6FC
  8
L3-16
 10
2.0229863163952828
 20
2.4796671503832699
 30
0.0
 11
2.0229863163952828
 21
0.4717930703832709
 31
0.0
  0
LINE
  5
6FD
  8
L3-16
 10
0.6096004443952835
 20
2.4796671503832699
 30
0.0
 11
0.6096004443952835
 21
0.4717930703832709
 31
0.0
  0
LINE
  5
6FE
  8
L3-16
 10
2.0229863163952828
 20
0.4717930703832709
 30
0.0
 11
0.6096004443952835
 21
0.4717930703832709
 31
0.0
  0
LINE
  5
6FF
  8
L3-16
 10
-1.9100846756047141
 20
3.6607695503832711
 30
0.0
 11
-1.910084675604715
 21
2.4796671503832699
 31
0.0
  0
LINE
  5
703
  8
L3-16
 10
-0.3861115445421801
 20
2.460966362343902
 30
0.0
 11
0.4990131853327482
 21
2.460966362343902
 31
0.0
  0
LINE
  5
704
  8
L3-16
 10
0.4883270207388227
 20
2.0816075192595349
 30
0.0
 11
-0.3754253799482547
 21
2.0816075192595371
 31
0.0
  0
ARC
  5
705
  8
L3-16
 10
0.056450820395284
 20
2.10943607288955
 30
0.0
 40
0.3484134914477874
 50
184.5812200852769
 51
355.41877991472302
  0
LINE
  5
706
  8
L3-16
 10
0.4883270207388227
 20
2.0816075192595349
 30
0.0
 11
0.4883270207388227
 21
2.460966362343902
 31
0.0
  0
LINE
  5
707
  8
L3-16
 10
0.4990131853327482
 20
2.460966362343902
 30
0.0
 11
0.4990131853327482
 21
2.4796671503832699
 31
0.0
  0
LINE
  5
708
  8
L3-16
 10
0.2723889205670534
 20
2.0816075192595371
 30
0.0
 11
0.2723889205670534
 21
2.460966362343902
 31
0.0
  0
LINE
  5
709
  8
L3-16
 10
-0.1594872797764853
 20
2.0816075192595371
 30
0.0
 11
-0.1594872797764853
 21
2.460966362343902
 31
0.0
  0
LINE
  5
70A
  8
L3-16
 10
-0.3754253799482547
 20
2.0816075192595371
 30
0.0
 11
-0.3754253799482547
 21
2.460966362343902
 31
0.0
  0
LINE
  5
70B
  8
L3-16
 10
-0.3861115445421801
 20
2.460966362343902
 30
0.0
 11
-0.3861115445421801
 21
2.4796671503832699
 31
0.0
  0
ARC
  5
70F
  8
ADAPTER
 10
2.7336162603952809
 20
13.543250548632271
 30
0.0
 40
2.8710186029518661
 50
128.20981495485211
 51
231.79018504514781
  0
LINE
  5
710
  8
ADAPTER
 10
0.9577677830264179
 20
11.28734496463227
 30
0.0
 11
4.5094647377641461
 21
11.28734496463227
 31
0.0
  0
ARC
  5
711
  8
ADAPTER
 10
2.7336162603952809
 20
13.543250548632271
 30
0.0
 40
2.8710186029518661
 50
308.20981495485211
 51
51.790185045147872
  0
LINE
  5
712
  8
ADAPTER
 10
5.6046348633471483
 20
7.8009271631832764
 30
0.0
 11
5.6046348633471483
 21
7.4009271503832759
 31
0.0
  0
LINE
  5
713
  8
ADAPTER
 10
-0.1374023425565852
 20
7.8009271631832764
 30
0.0
 11
-0.1374023425565852
 21
7.400927150383275
 31
0.0
  0
LINE
  5
7BD
  8
ADAPTER
 10
9.5162708966227907
 20
7.8009271759833121
 30
0.0
 11
9.5162708966227925
 21
7.400927150383275
 31
0.0
  0
LINE
  5
7BE
  8
ADAPTER
 10
14.02808206462279
 20
7.8009271759833103
 30
0.0
 11
14.02808206462279
 21
7.4009271503832759
 31
0.0
  0
LINE
  5
7BF
  8
L3-16
 10
9.5083968806227883
 20
7.4009271503832741
 30
0.0
 11
9.5083968806227883
 21
3.660769550383276
 31
0.0
  0
LINE
  5
7C0
  8
L3-16
 10
14.035956080622791
 20
7.4009271503832741
 30
0.0
 11
14.035956080622791
 21
3.6607695503832751
 31
0.0
  0
LINE
  5
7C1
  8
L3-16
 10
9.5083968806227883
 20
3.660769550383276
 30
0.0
 11
14.035956080622791
 21
3.6607695503832751
 31
0.0
  0
LINE
  5
7C2
  8
L3-16
 10
13.738711976622779
 20
3.660769550383276
 30
0.0
 11
13.73871197662279
 21
2.4796671503832761
 31
0.0
  0
LINE
  5
7C3
  8
L3-16
 10
9.8056409846227908
 20
2.4796671503832748
 30
0.0
 11
13.73871197662279
 21
2.4796671503832761
 31
0.0
  0
ARC
  5
7C4
  8
L3-16
 10
11.772176480622781
 20
2.109436072889554
 30
0.0
 40
0.3484134914477874
 50
184.5812200852769
 51
355.41877991472307
  0
LINE
  5
7C5
  8
L3-16
 10
12.21473884556025
 20
2.460966362343906
 30
0.0
 11
11.32961411568532
 21
2.460966362343906
 31
0.0
  0
LINE
  5
7C6
  8
L3-16
 10
11.34030028027925
 20
2.0816075192595398
 30
0.0
 11
12.204052680966321
 21
2.0816075192595411
 31
0.0
  0
LINE
  5
7C7
  8
L3-16
 10
11.34030028027925
 20
2.0816075192595398
 30
0.0
 11
11.34030028027925
 21
2.460966362343906
 31
0.0
  0
LINE
  5
7C8
  8
L3-16
 10
11.55623838045102
 20
2.0816075192595411
 30
0.0
 11
11.55623838045102
 21
2.460966362343906
 31
0.0
  0
LINE
  5
7C9
  8
L3-16
 10
11.32961411568532
 20
2.460966362343906
 30
0.0
 11
11.32961411568532
 21
2.4796671503832761
 31
0.0
  0
LINE
  5
7CA
  8
L3-16
 10
11.98811458079456
 20
2.0816075192595411
 30
0.0
 11
11.98811458079456
 21
2.460966362343906
 31
0.0
  0
LINE
  5
7CB
  8
L3-16
 10
12.204052680966321
 20
2.0816075192595411
 30
0.0
 11
12.204052680966321
 21
2.460966362343906
 31
0.0
  0
LINE
  5
7CC
  8
L3-16
 10
12.21473884556025
 20
2.460966362343906
 30
0.0
 11
12.21473884556025
 21
2.4796671503832761
 31
0.0
  0
LINE
  5
7CD
  8
L3-16
 10
9.8056409846227925
 20
3.660769550383276
 30
0.0
 11
9.8056409846227908
 21
2.4796671503832761
 31
0.0
  0
LINE
  5
7CE
  8
L3-16
 10
12.478869416622789
 20
2.4796671503832748
 30
0.0
 11
12.478869416622789
 21
0.4717930703832753
 31
0.0
  0
LINE
  5
7CF
  8
L3-16
 10
11.065483544622779
 20
0.4717930703832753
 30
0.0
 11
12.478869416622789
 21
0.4717930703832753
 31
0.0
  0
LINE
  5
7D0
  8
L3-16
 10
11.065483544622779
 20
2.4796671503832748
 30
0.0
 11
11.065483544622779
 21
0.4717930703832753
 31
0.0
  0
CIRCLE
  5
9AB
  8
L3-16
  6
HIDDEN
 10
5.4107817003952858
 20
13.543250548632271
 30
0.0
 40
1.966535495999999
  0
CIRCLE
  5
9AC
  8
L3-16
  6
HIDDEN
 10
6.6706242603952859
 20
13.543250548632271
 30
0.0
 40
0.7066929360000001
  0
ARC
  5
9AD
  8
L3-16
 10
3.5407029003952859
 20
13.543250548632271
 30
0.0
 40
4.1338584000000003
 50
326.7961774700297
 51
33.203822529970232
  0
CIRCLE
  5
9AF
  8
L3-16
  6
HIDDEN
 10
0.0564508203952863
 20
13.543250548632271
 30
0.0
 40
1.966535495999999
  0
CIRCLE
  5
9B0
  8
L3-16
  6
HIDDEN
 10
1.3162933803952841
 20
13.543250548632271
 30
0.0
 40
0.7066929360000001
  0
LINE
  5
9B1
  8
L3-16
 10
-1.532384543598146
 20
11.27947094863227
 30
0.0
 11
6.9996170643887172
 21
11.27947094863227
 31
0.0
  0
LINE
  5
9B6
  8
L3-16
 10
-1.5323845435981529
 20
15.80703014863226
 30
0.0
 11
6.9996170643887208
 21
15.80703014863227
 31
0.0
  0
ARC
  5
9B8
  8
L3-16
 10
1.926529620395286
 20
13.543250548632271
 30
0.0
 40
4.1338584000000003
 50
146.7961774700297
 51
213.20382252997021
  0
CIRCLE
  5
9B9
  8
L3-16
  6
HIDDEN
 10
-1.2033917396047129
 20
13.543250548632271
 30
0.0
 40
0.7066929360000001
  0
POLYLINE
  5
9BA
  8
L3-16
  6
HIDDEN
 66
     1
 10
0.0
 20
0.0
 30
0.0
 70
     1
  0
VERTEX
  5
D35
  8
L3-16
  6
HIDDEN
 10
-0.1594872797764831
 20
13.91726630941967
 30
0.0
  0
VERTEX
  5
D36
  8
L3-16
  6
HIDDEN
 10
-0.3754253799482525
 20
13.543250548632271
 30
0.0
  0
VERTEX
  5
D37
  8
L3-16
  6
HIDDEN
 10
-0.1594872797764831
 20
13.16923478784487
 30
0.0
  0
VERTEX
  5
D38
  8
L3-16
  6
HIDDEN
 10
0.2723889205670534
 20
13.16923478784487
 30
0.0
  0
VERTEX
  5
D39
  8
L3-16
  6
HIDDEN
 10
0.4883270207388227
 20
13.543250548632271
 30
0.0
  0
VERTEX
  5
D3A
  8
L3-16
  6
HIDDEN
 10
0.2723889205670556
 20
13.91726630941967
 30
0.0
  0
SEQEND
  5
D3B
  8
L3-16
  6
HIDDEN
  0
CIRCLE
  5
9BB
  8
L3-16
  6
HIDDEN
 10
0.0564508203952863
 20
13.543250548632271
 30
0.0
 40
0.3473003493025872
  0
CIRCLE
  5
9BD
  8
L3-16
  6
HIDDEN
 10
4.1509391403952858
 20
13.543250548632271
 30
0.0
 40
0.7066929360000001
  0
POLYLINE
  5
9CE
  8
L3-16
  6
HIDDEN
 66
     1
 10
0.0
 20
0.0
 30
0.0
 70
     1
  0
VERTEX
  5
D3C
  8
L3-16
  6
HIDDEN
 10
5.6267198005670549
 20
13.91726630941967
 30
0.0
  0
VERTEX
  5
D3D
  8
L3-16
  6
HIDDEN
 10
5.842657900738824
 20
13.543250548632271
 30
0.0
  0
VERTEX
  5
D3E
  8
L3-16
  6
HIDDEN
 10
5.6267198005670549
 20
13.16923478784487
 30
0.0
  0
VERTEX
  5
D3F
  8
L3-16
  6
HIDDEN
 10
5.1948436002235159
 20
13.16923478784487
 30
0.0
  0
VERTEX
  5
D40
  8
L3-16
  6
HIDDEN
 10
4.9789055000517468
 20
13.543250548632271
 30
0.0
  0
VERTEX
  5
D41
  8
L3-16
  6
HIDDEN
 10
5.1948436002235159
 20
13.91726630941967
 30
0.0
  0
SEQEND
  5
D42
  8
L3-16
  6
HIDDEN
  0
CIRCLE
  5
9CF
  8
L3-16
  6
HIDDEN
 10
5.4107817003952858
 20
13.543250548632271
 30
0.0
 40
0.3473003493025872
  0
CIRCLE
  5
9D0
  8
CTRSPINDLE
  6
HIDDEN
 10
2.7336162603952809
 20
13.543250548632271
 30
0.0
 40
0.7066929360000001
  0
LINE
  5
A20
  8
L3-16
 10
-2.2073287796047172
 20
3.6607695503832751
 30
0.0
 11
-2.2073287796047181
 21
7.4009271503832759
 31
0.0
  0
LINE
  5
A21
  8
L3-16
  6
HIDDEN
 10
-1.433959343598151
 20
3.6607695503832751
 30
0.0
 11
-1.433959343598151
 21
7.4009271503832759
 31
0.0
  0
LINE
  5
A61
  8
CTRSPINDLE
 10
3.440309196395281
 20
3.6607695503832751
 30
0.0
 11
3.4403091963952819
 21
0.4717930703832753
 31
0.0
  0
LINE
  5
A62
  8
CTRSPINDLE
 10
2.0269233243952818
 20
3.6607695503832751
 30
0.0
 11
2.0269233243952818
 21
0.4717930703832753
 31
0.0
  0
LINE
  5
A63
  8
CTRSPINDLE
 10
2.0269233243952818
 20
0.4717930703832753
 30
0.0
 11
3.4403091963952819
 21
0.4717930703832753
 31
0.0
  0
LINE
  5
AFF
  8
DRIVE_TANG
  6
HIDDEN
 10
2.5367658603952821
 20
7.4796673103832783
 30
0.0
 11
2.930466660395282
 21
7.4796673103832783
 31
0.0
  0
LINE
  5
B00
  8
DRIVE_TANG
  6
HIDDEN
 10
2.1910965579952801
 20
9.0647067311832767
 30
0.0
 11
3.27613596279528
 21
9.0647067311832767
 31
0.0
  0
LINE
  5
B02
  8
DRIVE_TANG
  6
HIDDEN
 10
2.5367658603952821
 20
7.8965964575832794
 30
0.0
 11
2.5367658603952821
 21
7.4796673103832783
 31
0.0
  0
LINE
  5
B05
  8
DRIVE_TANG
  6
HIDDEN
 10
2.1910965579952801
 20
7.8965964575832794
 30
0.0
 11
2.5367658603952821
 21
7.8965964575832794
 31
0.0
  0
LINE
  5
B07
  8
DRIVE_TANG
  6
HIDDEN
 10
2.1910965579952801
 20
9.0647067311832767
 30
0.0
 11
2.1910965579952801
 21
7.8965964575832794
 31
0.0
  0
LINE
  5
B08
  8
DRIVE_TANG
  6
HIDDEN
 10
2.930466660395282
 20
7.4796673103832783
 30
0.0
 11
2.930466660395282
 21
7.8965964575832741
 31
0.0
  0
LINE
  5
B0B
  8
DRIVE_TANG
  6
HIDDEN
 10
2.930466660395282
 20
7.8965964575832741
 30
0.0
 11
3.27613596279528
 21
7.8965964575832794
 31
0.0
  0
LINE
  5
B0D
  8
DRIVE_TANG
  6
HIDDEN
 10
3.27613596279528
 20
9.0647067311832767
 30
0.0
 11
3.27613596279528
 21
7.8965964575832794
 31
0.0
  0
TEXT
  5
BDB
  8
0
 10
-0.9422353372332494
 20
10.528282101970721
 30
0.0
 40
0.125
  1
THE ADAPTER SHOWN IN THIS DRAWING IS ONLY TO ILLUSTRATE A TYPICAL ADAPTER
  7
ARIAL
  0
CIRCLE
  5
CA0
  8
L3-16
  6
HIDDEN
 10
2.7336162603952809
 20
13.543250548632271
 30
0.0
 40
1.0826772
  0
CIRCLE
  5
CA5
  8
ADAPTER
 10
2.7336162603952809
 20
13.543250548632271
 30
0.0
 40
1.1154999999999999
  0
CIRCLE
  5
CA6
  8
ADAPTER
 10
2.7336162603952809
 20
13.543250548632271
 30
0.0
 40
1.006219572934834
  0
CIRCLE
  5
CA8
  8
ADAPTER
 10
2.7336162603952809
 20
13.543250548632271
 30
0.0
 40
0.625
  0
LINE
  5
CBA
  8
L3-16
  6
HIDDEN
 10
3.8162934603952792
 20
7.2031500352822171
 30
0.0
 11
1.6509390603952769
 21
7.2031500352822171
 31
0.0
  0
LINE
  5
CBB
  8
ADAPTER
  6
HIDDEN
 10
3.84911626039528
 20
8.1864178432822143
 30
0.0
 11
1.618116260395277
 21
8.1864178432822143
 31
0.0
  0
LINE
  5
CBC
  8
ADAPTER
  6
HIDDEN
 10
1.6509390603952769
 20
7.2031500352822171
 30
0.0
 11
3.8162934603952792
 21
7.2031500352822171
 31
0.0
  0
LINE
  5
CBD
  8
ADAPTER
  6
HIDDEN
 10
1.743116260395277
 20
7.4009271503832741
 30
0.0
 11
3.72411626039528
 21
7.4009271503832741
 31
0.0
  0
LINE
  5
CBF
  8
ADAPTER
  6
HIDDEN
 10
1.743116260395277
 20
8.1864178432822143
 30
0.0
 11
1.743116260395277
 21
7.4009271503832741
 31
0.0
  0
LINE
  5
CC1
  8
L3-16
  6
HIDDEN
 10
1.6509390603952769
 20
7.2031500352822171
 30
0.0
 11
1.6509390603952769
 21
7.3212602752822171
 31
0.0
  0
LINE
  5
CC2
  8
ADAPTER
  6
HIDDEN
 10
1.6509390603952769
 20
7.3212602752822171
 30
0.0
 11
1.6509390603952769
 21
7.2031500352822171
 31
0.0
  0
LINE
  5
CC3
  8
ADAPTER
  6
HIDDEN
 10
2.1086162603952778
 20
7.2031500352822171
 30
0.0
 11
2.1086162603952778
 21
7.4009271503832741
 31
0.0
  0
LINE
  5
CC4
  8
ADAPTER
  6
HIDDEN
 10
3.3586162603952778
 20
7.2031500352822171
 30
0.0
 11
3.3586162603952778
 21
7.4009271503832741
 31
0.0
  0
LINE
  5
CC5
  8
ADAPTER
  6
HIDDEN
 10
1.618116260395277
 20
10.14108471838327
 30
0.0
 11
1.618116260395277
 21
8.1864178432822143
 31
0.0
  0
LINE
  5
CC7
  8
ADAPTER
  6
HIDDEN
 10
3.72411626039528
 20
8.1864178432822143
 30
0.0
 11
3.72411626039528
 21
7.4009271503832741
 31
0.0
  0
LINE
  5
CC8
  8
L3-16
  6
HIDDEN
 10
3.8162934603952792
 20
7.2031500352822171
 30
0.0
 11
3.8162934603952792
 21
7.3212602752822171
 31
0.0
  0
LINE
  5
CC9
  8
ADAPTER
  6
HIDDEN
 10
3.8162934603952792
 20
7.2031500352822171
 30
0.0
 11
3.8162934603952792
 21
7.3212602752822171
 31
0.0
  0
LINE
  5
CCD
  8
ADAPTER
  6
HIDDEN
 10
3.8491162603952809
 20
10.14108471838327
 30
0.0
 11
3.84911626039528
 21
8.1864178432822143
 31
0.0
  0
LINE
  5
CD6
  8
ADAPTER
  6
HIDDEN
 10
10.78167648062278
 20
8.1864178560822491
 30
0.0
 11
10.78167648062278
 21
7.4009271631833089
 31
0.0
  0
LINE
  5
CD7
  8
ADAPTER
  6
HIDDEN
 10
11.147176480622781
 20
7.203150048082251
 30
0.0
 11
11.147176480622781
 21
7.4009271631833089
 31
0.0
  0
LINE
  5
CD8
  8
ADAPTER
  6
HIDDEN
 10
10.68949928062278
 20
7.321260288082251
 30
0.0
 11
10.68949928062278
 21
7.203150048082251
 31
0.0
  0
LINE
  5
CD9
  8
ADAPTER
  6
HIDDEN
 10
10.65667648062278
 20
10.1410847311833
 30
0.0
 11
10.65667648062278
 21
8.1864178560822491
 31
0.0
  0
LINE
  5
CDA
  8
ADAPTER
  6
HIDDEN
 10
10.68949928062278
 20
7.203150048082251
 30
0.0
 11
12.85485368062278
 21
7.203150048082251
 31
0.0
  0
LINE
  5
CDB
  8
ADAPTER
  6
HIDDEN
 10
10.78167648062278
 20
7.4009271631833089
 30
0.0
 11
12.76267648062278
 21
7.4009271631833089
 31
0.0
  0
LINE
  5
CDC
  8
ADAPTER
  6
HIDDEN
 10
12.397176480622781
 20
7.203150048082251
 30
0.0
 11
12.397176480622781
 21
7.4009271631833089
 31
0.0
  0
LINE
  5
CDD
  8
ADAPTER
  6
HIDDEN
 10
12.85485368062278
 20
7.203150048082251
 30
0.0
 11
12.85485368062278
 21
7.321260288082251
 31
0.0
  0
LINE
  5
CDE
  8
ADAPTER
  6
HIDDEN
 10
12.76267648062278
 20
8.1864178560822491
 30
0.0
 11
12.76267648062278
 21
7.4009271631833089
 31
0.0
  0
LINE
  5
CDF
  8
ADAPTER
  6
HIDDEN
 10
12.88767648062278
 20
8.1864178560822491
 30
0.0
 11
10.65667648062278
 21
8.1864178560822491
 31
0.0
  0
LINE
  5
CE0
  8
ADAPTER
  6
HIDDEN
 10
12.88767648062278
 20
10.1410847311833
 30
0.0
 11
12.88767648062278
 21
8.1864178560822491
 31
0.0
  0
LINE
  5
CE1
  8
L3-16
  6
HIDDEN
 10
12.85485368062278
 20
7.2031500352822171
 30
0.0
 11
10.68949928062278
 21
7.2031500352822171
 31
0.0
  0
LINE
  5
CE2
  8
L3-16
  6
HIDDEN
 10
10.68949928062278
 20
7.2031500352822171
 30
0.0
 11
10.68949928062278
 21
7.3212602752822171
 31
0.0
  0
LINE
  5
CE3
  8
L3-16
  6
HIDDEN
 10
12.85485368062278
 20
7.2031500352822171
 30
0.0
 11
12.85485368062278
 21
7.3212602752822171
 31
0.0
  0
ENDSEC
  0
EOF
